All Of The Above Chords

Conway/Zygier 1997

All of the Above Chords

more of All of the Above

or for those who prefer tab for the last bit

e:-0v--3--5--------------------0v--1--3--1--0-|
B:----------0v--3--5--0v--1--3----------------|
G:--------------------------------------------|
D:--------------------------------------------|
A:--------------------------------------------|
E:--------------------------------------------|
e:-0v--3--5-------------------0v--1--3--0-|
B:----------0v--3--5--0--1--3-------------|
G:----------------------------------------|
D:----------------------------------------|
A:----------------------------------------|
E:----------------------------------------|

These chords provided by Tim Hackett who said

“All of the Above” is a magic song full of all sorts of little timing
labyrinths. Willy Zygier very kindly pointed out a couple of errors I
made, so this is the revised version. I’ve used some 3 note chords
for the verses, but garden variety A, F, C & G chords work just as
well. If you feel a bit adventurous, you can always have a go at the
guitar fills and solos which I’ve represented schematically (my
knowledge of music theory is somewhat below par). Probably the best
way to use these chords and fills is to listen closely to the
recording and play along. If you don’t have a copy of “My Third
Husband” …

(a) go out and buy it
(b) put it on your birthday & Christmas list
(c) go to Gaslight Records’ nude day and get it free
(d) hassle your favourite radio station to play it
(e) all of the above

One thought on “All Of The Above Chords

Leave a Reply

Your email address will not be published.